花未期

/*bpm=116,1=F转#A转F,n=1/8*/
......
【吉他】
06.1.6.3.6.06.
05.05.05.05.
3.15.15.13.5.
07.5.6.-5.--
3.-6.1----
2.-5.3.--
2.0(2.)3.---0
15.2.3.--5.----
【女声吟唱】
6-------5---3--23~
5-6-------5---3--23-------5~
6-------5---3--23---5---2~
5-6-------5---3--23-------5~
【钢琴】
2'-1'-2'3'-2'5-1'-71'--
2'-1'-2'3'--5'~
2'-1'-2'3'-2'5-1'-2'3'--
2'-1'-2'5'--3'~
2'-1'-2'3'-2'5-1'-71'--
2'-1'-2'3'--5'~
2'-1'-2'3'-2'5-1'-2'3'--1~
/*1=#A*/
5---6---1'---7--6--5-3~
5---6---1'---7--6--1'-2'-------3'~
1'-7---6---5---
2-3---5---7~
6.---1---7.-----5.-6.~
【女声吟唱】
/*1=F*/
5---6---1'---7--6--5-3~
5---6---1'---7-----1'-2'-------3'~
1'-7---6---5---
2-3---5---7.~
6.---1---7.-----5.-6.~
【钢琴】
5---6---1'---7--6--5-3~
5---6---1'---7-----1'-2'-------3'~
1'-7---6---5---
2-3---5---7.~
6.---1---7.-----5.-6.~
【女声吟唱】
5---6---1'---7--6--5-3~
5---6---1'---7-----1'-2'-------3'~
1'-7---6---5---
2-3---5---7.~
6.---1---7.-----5.-6.~
00:00
04:02